ISO-10303-21;
HEADER;
FILE_DESCRIPTION (( 'STEP AP203' ),
    '1' );
FILE_NAME ('BK7-NPBSC-25.4-1200-1600.STEP',
    '2020-12-22T02:11:45',
    ( '' ),
    ( '' ),
    'SwSTEP 2.0',
    'SolidWorks 2020',
    '' );
FILE_SCHEMA (( 'CONFIG_CONTROL_DESIGN' ));
ENDSEC;

DATA;
#1 = PRODUCT ( 'BK7-NPBSC-25.4-1200-1600', 'BK7-NPBSC-25.4-1200-1600', '', ( #106 ) ) ;
#2 = APPLICATION_PROTOCOL_DEFINITION ( 'international standard', 'config_control_design', 1994, #36 ) ;
#3 = CARTESIAN_POINT ( 'NONE',  ( -12.69999999999999574, -12.69999999999999396, 12.69999999999999929 ) ) ;
#4 =( NAMED_UNIT ( * ) SI_UNIT ( $, .STERADIAN. ) SOLID_ANGLE_UNIT ( ) );
#5 = VECTOR ( 'NONE', #249, 1000.000000000000000 ) ;
#6 = CARTESIAN_POINT ( 'NONE',  ( -12.69999999999999751, -12.69999999999999929, -12.69999999999999929 ) ) ;
#7 = LINE ( 'NONE', #302, #40 ) ;
#8 = PLANE ( 'NONE',  #57 ) ;
#9 = APPROVAL_DATE_TIME ( #179, #160 ) ;
#10 = VECTOR ( 'NONE', #41, 1000.000000000000000 ) ;
#11 = CARTESIAN_POINT ( 'NONE',  ( 0.000000000000000000, 0.000000000000000000, -12.69999999999999929 ) ) ;
#12 = CARTESIAN_POINT ( 'NONE',  ( 12.69999999999999574, 12.69999999999999574, 12.69999999999999929 ) ) ;
#13 = PLANE ( 'NONE',  #124 ) ;
#14 = VECTOR ( 'NONE', #135, 1000.000000000000114 ) ;
#15 = AXIS2_PLACEMENT_3D ( 'NONE', #315, #91, #170 ) ;
#16 = CARTESIAN_POINT ( 'NONE',  ( -12.69999999999999751, -12.69999999999999929, -12.69999999999999929 ) ) ;
#17 = CARTESIAN_POINT ( 'NONE',  ( 12.69999999999999929, 12.69999999999999929, 12.69999999999999929 ) ) ;
#18 = ORIENTED_EDGE ( 'NONE', *, *, #126, .T. ) ;
#19 = EDGE_CURVE ( 'NONE', #320, #294, #110, .T. ) ;
#20 = APPROVAL_PERSON_ORGANIZATION ( #206, #160, #78 ) ;
#21 = EDGE_CURVE ( 'NONE', #180, #129, #7, .T. ) ;
#22 = EDGE_LOOP ( 'NONE', ( #232, #231, #202 ) ) ;
#23 = EDGE_LOOP ( 'NONE', ( #187, #153, #217 ) ) ;
#24 = DIRECTION ( 'NONE',  ( 1.000000000000000000, 0.000000000000000000, 0.000000000000000000 ) ) ;
#25 = ORIENTED_EDGE ( 'NONE', *, *, #268, .T. ) ;
#26 = EDGE_CURVE ( 'NONE', #129, #255, #55, .T. ) ;
#27 = CALENDAR_DATE ( 2020, 22, 12 ) ;
#28 = CARTESIAN_POINT ( 'NONE',  ( 12.69999999999999929, 12.69999999999999929, 12.69999999999999929 ) ) ;
#29 = COORDINATED_UNIVERSAL_TIME_OFFSET ( 8, 0, .AHEAD. ) ;
#30 = DIRECTION ( 'NONE',  ( -0.000000000000000000, 0.000000000000000000, 1.000000000000000000 ) ) ;
#31 = ORGANIZATION ( 'UNSPECIFIED', 'UNSPECIFIED', '' ) ;
#32 = DIRECTION ( 'NONE',  ( -0.000000000000000000, 1.000000000000000000, -0.000000000000000000 ) ) ;
#33 = CARTESIAN_POINT ( 'NONE',  ( 12.69999999999999929, -12.69999999999999929, 12.69999999999999929 ) ) ;
#34 = APPROVAL_DATE_TIME ( #157, #94 ) ;
#35 = DIRECTION ( 'NONE',  ( 0.000000000000000000, -0.000000000000000000, 1.000000000000000000 ) ) ;
#36 = APPLICATION_CONTEXT ( 'configuration controlled 3d designs of mechanical parts and assemblies' ) ;
#37 = EDGE_CURVE ( 'NONE', #319, #318, #243, .T. ) ;
#38 = DIRECTION ( 'NONE',  ( 1.000000000000000000, -2.220446049250312588E-16, 0.000000000000000000 ) ) ;
#39 = CC_DESIGN_PERSON_AND_ORGANIZATION_ASSIGNMENT ( #131, #112, ( #127 ) ) ;
#40 = VECTOR ( 'NONE', #32, 1000.000000000000000 ) ;
#41 = DIRECTION ( 'NONE',  ( 1.000000000000000000, 0.000000000000000000, 0.000000000000000000 ) ) ;
#42 = LINE ( 'NONE', #12, #99 ) ;
#43 = CARTESIAN_POINT ( 'NONE',  ( -12.69999999999999751, -12.69999999999999929, 12.69999999999999929 ) ) ;
#44 = PLANE ( 'NONE',  #275 ) ;
#45 = PLANE ( 'NONE',  #143 ) ;
#46 = EDGE_LOOP ( 'NONE', ( #205, #277, #108, #125 ) ) ;
#47 = EDGE_LOOP ( 'NONE', ( #103, #100, #53, #178 ) ) ;
#48 = VERTEX_POINT ( 'NONE', #214 ) ;
#49 = EDGE_LOOP ( 'NONE', ( #105, #208, #123, #155 ) ) ;
#50 = DATE_AND_TIME ( #308, #133 ) ;
#51 = ORIENTED_EDGE ( 'NONE', *, *, #21, .F. ) ;
#52 = DATE_AND_TIME ( #136, #86 ) ;
#53 = ORIENTED_EDGE ( 'NONE', *, *, #316, .T. ) ;
#54 = APPROVAL_STATUS ( 'not_yet_approved' ) ;
#55 = LINE ( 'NONE', #28, #195 ) ;
#56 = FACE_OUTER_BOUND ( 'NONE', #175, .T. ) ;
#57 = AXIS2_PLACEMENT_3D ( 'NONE', #60, #161, #35 ) ;
#58 = APPROVAL_PERSON_ORGANIZATION ( #113, #94, #259 ) ;
#59 = COORDINATED_UNIVERSAL_TIME_OFFSET ( 8, 0, .AHEAD. ) ;
#60 = CARTESIAN_POINT ( 'NONE',  ( -12.69999999999999751, -12.69999999999999929, 12.69999999999999929 ) ) ;
#61 = SHAPE_DEFINITION_REPRESENTATION ( #272, #72 ) ;
#62 = CARTESIAN_POINT ( 'NONE',  ( 12.69999999999999574, 12.69999999999999574, -12.69999999999999929 ) ) ;
#63 = DIRECTION ( 'NONE',  ( -0.000000000000000000, 1.000000000000000000, -0.000000000000000000 ) ) ;
#64 = MANIFOLD_SOLID_BREP ( '¾µÏ', #210 ) ;
#65 = LOCAL_TIME ( 10, 11, 45.00000000000000000, #213 ) ;
#66 = CARTESIAN_POINT ( 'NONE',  ( -12.69999999999999574, -12.69999999999999396, 12.69999999999999929 ) ) ;
#67 = CC_DESIGN_PERSON_AND_ORGANIZATION_ASSIGNMENT ( #299, #104, ( #1 ) ) ;
#68 =( LENGTH_UNIT ( ) NAMED_UNIT ( * ) SI_UNIT ( .MILLI., .METRE. ) );
#69 = CLOSED_SHELL ( 'NONE', ( #257, #199, #149, #236, #142 ) ) ;
#70 = APPROVAL_PERSON_ORGANIZATION ( #297, #97, #107 ) ;
#71 = CARTESIAN_POINT ( 'NONE',  ( 12.69999999999999574, 12.69999999999999574, -12.69999999999999929 ) ) ;
#72 = ADVANCED_BREP_SHAPE_REPRESENTATION ( 'BK7-NPBSC-25.4-1200-1600', ( #184, #64, #309 ), #221 ) ;
#73 = VERTEX_POINT ( 'NONE', #158 ) ;
#74 = VERTEX_POINT ( 'NONE', #62 ) ;
#75 = VECTOR ( 'NONE', #63, 1000.000000000000000 ) ;
#76 = ORIENTED_EDGE ( 'NONE', *, *, #312, .T. ) ;
#77 = ORIENTED_EDGE ( 'NONE', *, *, #19, .T. ) ;
#78 = APPROVAL_ROLE ( '' ) ;
#79 = APPROVAL_DATE_TIME ( #50, #97 ) ;
#80 = ORIENTED_EDGE ( 'NONE', *, *, #26, .F. ) ;
#81 = ORIENTED_EDGE ( 'NONE', *, *, #21, .T. ) ;
#82 = PRODUCT_RELATED_PRODUCT_CATEGORY ( 'detail', '', ( #1 ) ) ;
#83 = PERSON_AND_ORGANIZATION_ROLE ( 'creator' ) ;
#84 = CARTESIAN_POINT ( 'NONE',  ( 12.69999999999999929, 12.69999999999999929, -12.69999999999999929 ) ) ;
#85 = PLANE ( 'NONE',  #134 ) ;
#86 = LOCAL_TIME ( 10, 11, 45.00000000000000000, #207 ) ;
#87 = APPROVAL_STATUS ( 'not_yet_approved' ) ;
#88 = APPLICATION_CONTEXT ( 'configuration controlled 3d designs of mechanical parts and assemblies' ) ;
#89 = FACE_OUTER_BOUND ( 'NONE', #23, .T. ) ;
#90 = LINE ( 'NONE', #137, #101 ) ;
#91 = DIRECTION ( 'NONE',  ( 2.220446049250312588E-16, -1.000000000000000000, 0.000000000000000000 ) ) ;
#92 = VECTOR ( 'NONE', #183, 1000.000000000000000 ) ;
#93 = DIRECTION ( 'NONE',  ( 0.7071067811865475727, 0.7071067811865475727, 0.000000000000000000 ) ) ;
#94 = APPROVAL ( #54, 'UNSPECIFIED' ) ;
#95 = DIRECTION ( 'NONE',  ( 0.000000000000000000, 0.000000000000000000, 1.000000000000000000 ) ) ;
#96 = FACE_OUTER_BOUND ( 'NONE', #49, .T. ) ;
#97 = APPROVAL ( #87, 'UNSPECIFIED' ) ;
#98 = DIRECTION ( 'NONE',  ( -0.7071067811865475727, -0.7071067811865475727, 0.000000000000000000 ) ) ;
#99 = VECTOR ( 'NONE', #118, 1000.000000000000000 ) ;
#100 = ORIENTED_EDGE ( 'NONE', *, *, #168, .F. ) ;
#101 = VECTOR ( 'NONE', #193, 1000.000000000000000 ) ;
#102 = EDGE_CURVE ( 'NONE', #319, #48, #159, .T. ) ;
#103 = ORIENTED_EDGE ( 'NONE', *, *, #268, .F. ) ;
#104 = PERSON_AND_ORGANIZATION_ROLE ( 'design_owner' ) ;
#105 = ORIENTED_EDGE ( 'NONE', *, *, #173, .T. ) ;
#106 = MECHANICAL_CONTEXT ( 'NONE', #36, 'mechanical' ) ;
#107 = APPROVAL_ROLE ( '' ) ;
#108 = ORIENTED_EDGE ( 'NONE', *, *, #286, .T. ) ;
#109 = PERSON_AND_ORGANIZATION ( #114, #31 ) ;
#110 = LINE ( 'NONE', #305, #181 ) ;
#111 = DIRECTION ( 'NONE',  ( 0.000000000000000000, 0.000000000000000000, -1.000000000000000000 ) ) ;
#112 = PERSON_AND_ORGANIZATION_ROLE ( 'creator' ) ;
#113 = PERSON_AND_ORGANIZATION ( #114, #31 ) ;
#114 = PERSON ( 'UNSPECIFIED', 'UNSPECIFIED', 'UNSPECIFIED', ('UNSPECIFIED'), ('UNSPECIFIED'), ('UNSPECIFIED') ) ;
#115 = CC_DESIGN_SECURITY_CLASSIFICATION ( #230, ( #151 ) ) ;
#116 = LINE ( 'NONE', #300, #119 ) ;
#117 = FACE_OUTER_BOUND ( 'NONE', #47, .T. ) ;
#118 = DIRECTION ( 'NONE',  ( 1.000000000000000000, -2.220446049250312588E-16, 0.000000000000000000 ) ) ;
#119 = VECTOR ( 'NONE', #111, 1000.000000000000000 ) ;
#120 = CARTESIAN_POINT ( 'NONE',  ( 0.000000000000000000, 0.000000000000000000, 12.69999999999999929 ) ) ;
#121 = LINE ( 'NONE', #144, #169 ) ;
#122 = DIRECTION ( 'NONE',  ( 0.7071067811865475727, -0.7071067811865475727, 0.000000000000000000 ) ) ;
#123 = ORIENTED_EDGE ( 'NONE', *, *, #265, .F. ) ;
#124 = AXIS2_PLACEMENT_3D ( 'NONE', #120, #95, #197 ) ;
#125 = ORIENTED_EDGE ( 'NONE', *, *, #102, .T. ) ;
#126 = EDGE_CURVE ( 'NONE', #73, #255, #282, .T. ) ;
#127 = PRODUCT_DEFINITION ( 'UNKNOWN', '', #151, #229 ) ;
#128 =( NAMED_UNIT ( * ) PLANE_ANGLE_UNIT ( ) SI_UNIT ( $, .RADIAN. ) );
#129 = VERTEX_POINT ( 'NONE', #220 ) ;
#130 = ORIENTED_EDGE ( 'NONE', *, *, #141, .F. ) ;
#131 = PERSON_AND_ORGANIZATION ( #114, #31 ) ;
#132 = ORIENTED_EDGE ( 'NONE', *, *, #222, .T. ) ;
#133 = LOCAL_TIME ( 10, 11, 45.00000000000000000, #287 ) ;
#134 = AXIS2_PLACEMENT_3D ( 'NONE', #285, #38, #283 ) ;
#135 = DIRECTION ( 'NONE',  ( -0.7071067811865474617, -0.7071067811865474617, 0.000000000000000000 ) ) ;
#136 = CALENDAR_DATE ( 2020, 22, 12 ) ;
#137 = CARTESIAN_POINT ( 'NONE',  ( -12.69999999999999574, -12.69999999999999396, -12.69999999999999929 ) ) ;
#138 = DATE_TIME_ROLE ( 'creation_date' ) ;
#139 = CARTESIAN_POINT ( 'NONE',  ( -12.69999999999999751, -12.69999999999999929, 12.69999999999999929 ) ) ;
#140 = PLANE ( 'NONE',  #146 ) ;
#141 = EDGE_CURVE ( 'NONE', #320, #180, #310, .T. ) ;
#142 = ADVANCED_FACE ( 'NONE', ( #89 ), #140, .F. ) ;
#143 = AXIS2_PLACEMENT_3D ( 'NONE', #17, #122, #314 ) ;
#144 = CARTESIAN_POINT ( 'NONE',  ( 12.69999999999999574, 12.69999999999999574, 12.69999999999999929 ) ) ;
#145 = LINE ( 'NONE', #250, #234 ) ;
#146 = AXIS2_PLACEMENT_3D ( 'NONE', #223, #30, #156 ) ;
#147 = EDGE_CURVE ( 'NONE', #294, #73, #191, .T. ) ;
#148 = EDGE_CURVE ( 'NONE', #180, #73, #163, .T. ) ;
#149 = ADVANCED_FACE ( 'NONE', ( #56 ), #303, .F. ) ;
#150 = ADVANCED_FACE ( 'NONE', ( #211 ), #85, .F. ) ;
#151 = PRODUCT_DEFINITION_FORMATION_WITH_SPECIFIED_SOURCE ( 'ANY', '', #1, .NOT_KNOWN. ) ;
#152 = PERSON_AND_ORGANIZATION_ROLE ( 'classification_officer' ) ;
#153 = ORIENTED_EDGE ( 'NONE', *, *, #126, .F. ) ;
#154 = APPLICATION_PROTOCOL_DEFINITION ( 'international standard', 'config_control_design', 1994, #88 ) ;
#155 = ORIENTED_EDGE ( 'NONE', *, *, #26, .T. ) ;
#156 = DIRECTION ( 'NONE',  ( 1.000000000000000000, 0.000000000000000000, 0.000000000000000000 ) ) ;
#157 = DATE_AND_TIME ( #27, #65 ) ;
#158 = CARTESIAN_POINT ( 'NONE',  ( 12.69999999999999929, -12.69999999999999929, -12.69999999999999929 ) ) ;
#159 = LINE ( 'NONE', #242, #292 ) ;
#160 = APPROVAL ( #296, 'UNSPECIFIED' ) ;
#161 = DIRECTION ( 'NONE',  ( 0.000000000000000000, 1.000000000000000000, 0.000000000000000000 ) ) ;
#162 = PERSON_AND_ORGANIZATION ( #114, #31 ) ;
#163 = LINE ( 'NONE', #262, #5 ) ;
#164 = DIRECTION ( 'NONE',  ( 0.000000000000000000, 0.000000000000000000, -1.000000000000000000 ) ) ;
#165 = CC_DESIGN_APPROVAL ( #160, ( #127 ) ) ;
#166 = CARTESIAN_POINT ( 'NONE',  ( 12.69999999999999574, 12.69999999999999574, -12.69999999999999929 ) ) ;
#167 = CARTESIAN_POINT ( 'NONE',  ( 12.69999999999999929, 12.69999999999999929, 12.69999999999999929 ) ) ;
#168 = EDGE_CURVE ( 'NONE', #318, #177, #116, .T. ) ;
#169 = VECTOR ( 'NONE', #293, 1000.000000000000000 ) ;
#170 = DIRECTION ( 'NONE',  ( 0.000000000000000000, 0.000000000000000000, 1.000000000000000000 ) ) ;
#171 = FACE_OUTER_BOUND ( 'NONE', #295, .T. ) ;
#172 = ORIENTED_EDGE ( 'NONE', *, *, #147, .T. ) ;
#173 = EDGE_CURVE ( 'NONE', #255, #294, #215, .T. ) ;
#174 = VECTOR ( 'NONE', #254, 1000.000000000000000 ) ;
#175 = EDGE_LOOP ( 'NONE', ( #18, #80, #51, #241 ) ) ;
#176 = UNCERTAINTY_MEASURE_WITH_UNIT (LENGTH_MEASURE( 1.000000000000000082E-05 ), #68, 'distance_accuracy_value', 'NONE');
#177 = VERTEX_POINT ( 'NONE', #246 ) ;
#178 = ORIENTED_EDGE ( 'NONE', *, *, #253, .T. ) ;
#179 = DATE_AND_TIME ( #239, #267 ) ;
#180 = VERTEX_POINT ( 'NONE', #33 ) ;
#181 = VECTOR ( 'NONE', #263, 1000.000000000000000 ) ;
#182 = VECTOR ( 'NONE', #224, 1000.000000000000114 ) ;
#183 = DIRECTION ( 'NONE',  ( -2.220446049250312588E-16, 1.000000000000000000, 0.000000000000000000 ) ) ;
#184 = MANIFOLD_SOLID_BREP ( 'Í¹Ì¨-À', #69 ) ;
#185 = DIRECTION ( 'NONE',  ( 0.000000000000000000, 0.000000000000000000, 1.000000000000000000 ) ) ;
#186 = SECURITY_CLASSIFICATION_LEVEL ( 'unclassified' ) ;
#187 = ORIENTED_EDGE ( 'NONE', *, *, #173, .F. ) ;
#188 = PLANE ( 'NONE',  #203 ) ;
#189 = FACE_OUTER_BOUND ( 'NONE', #201, .T. ) ;
#190 = CALENDAR_DATE ( 2020, 22, 12 ) ;
#191 = LINE ( 'NONE', #6, #10 ) ;
#192 = CC_DESIGN_PERSON_AND_ORGANIZATION_ASSIGNMENT ( #109, #152, ( #230 ) ) ;
#193 = DIRECTION ( 'NONE',  ( -2.220446049250312588E-16, 1.000000000000000000, 0.000000000000000000 ) ) ;
#194 = LINE ( 'NONE', #166, #247 ) ;
#195 = VECTOR ( 'NONE', #209, 1000.000000000000000 ) ;
#196 = FACE_OUTER_BOUND ( 'NONE', #46, .T. ) ;
#197 = DIRECTION ( 'NONE',  ( -2.220446049250312588E-16, 1.000000000000000000, 0.000000000000000000 ) ) ;
#198 = ADVANCED_FACE ( 'NONE', ( #189 ), #188, .F. ) ;
#199 = ADVANCED_FACE ( 'NONE', ( #244 ), #8, .F. ) ;
#200 = CARTESIAN_POINT ( 'NONE',  ( 12.69999999999999574, 12.69999999999999574, 12.69999999999999929 ) ) ;
#201 = EDGE_LOOP ( 'NONE', ( #76, #132, #25 ) ) ;
#202 = ORIENTED_EDGE ( 'NONE', *, *, #37, .F. ) ;
#203 = AXIS2_PLACEMENT_3D ( 'NONE', #11, #185, #311 ) ;
#204 = ORIENTED_EDGE ( 'NONE', *, *, #102, .F. ) ;
#205 = ORIENTED_EDGE ( 'NONE', *, *, #312, .F. ) ;
#206 = PERSON_AND_ORGANIZATION ( #114, #31 ) ;
#207 = COORDINATED_UNIVERSAL_TIME_OFFSET ( 8, 0, .AHEAD. ) ;
#208 = ORIENTED_EDGE ( 'NONE', *, *, #19, .F. ) ;
#209 = DIRECTION ( 'NONE',  ( -0.000000000000000000, -0.000000000000000000, -1.000000000000000000 ) ) ;
#210 = CLOSED_SHELL ( 'NONE', ( #248, #150, #307, #321, #198 ) ) ;
#211 = FACE_OUTER_BOUND ( 'NONE', #235, .T. ) ;
#212 = LOCAL_TIME ( 10, 11, 45.00000000000000000, #59 ) ;
#213 = COORDINATED_UNIVERSAL_TIME_OFFSET ( 8, 0, .AHEAD. ) ;
#214 = CARTESIAN_POINT ( 'NONE',  ( -12.69999999999999574, -12.69999999999999396, -12.69999999999999929 ) ) ;
#215 = LINE ( 'NONE', #264, #14 ) ;
#216 = CC_DESIGN_DATE_AND_TIME_ASSIGNMENT ( #52, #138, ( #127 ) ) ;
#217 = ORIENTED_EDGE ( 'NONE', *, *, #147, .F. ) ;
#218 = CARTESIAN_POINT ( 'NONE',  ( 12.69999999999999929, 12.69999999999999929, 12.69999999999999929 ) ) ;
#219 = DATE_AND_TIME ( #190, #212 ) ;
#220 = CARTESIAN_POINT ( 'NONE',  ( 12.69999999999999929, 12.69999999999999929, 12.69999999999999929 ) ) ;
#221 =( GEOMETRIC_REPRESENTATION_CONTEXT ( 3 ) GLOBAL_UNCERTAINTY_ASSIGNED_CONTEXT ( ( #176 ) ) GLOBAL_UNIT_ASSIGNED_CONTEXT ( ( #68, #128, #4 ) ) REPRESENTATION_CONTEXT ( 'NONE', 'WORKASPACE' ) );
#222 = EDGE_CURVE ( 'NONE', #48, #177, #90, .T. ) ;
#223 = CARTESIAN_POINT ( 'NONE',  ( 0.000000000000000000, 0.000000000000000000, -12.69999999999999929 ) ) ;
#224 = DIRECTION ( 'NONE',  ( -0.7071067811865474617, -0.7071067811865474617, 0.000000000000000000 ) ) ;
#225 = LINE ( 'NONE', #71, #174 ) ;
#226 = CC_DESIGN_APPROVAL ( #97, ( #151 ) ) ;
#227 = DIRECTION ( 'NONE',  ( 1.000000000000000000, 0.000000000000000000, 0.000000000000000000 ) ) ;
#228 = PLANE ( 'NONE',  #15 ) ;
#229 = DESIGN_CONTEXT ( 'detailed design', #88, 'design' ) ;
#230 = SECURITY_CLASSIFICATION ( '', '', #186 ) ;
#231 = ORIENTED_EDGE ( 'NONE', *, *, #316, .F. ) ;
#232 = ORIENTED_EDGE ( 'NONE', *, *, #286, .F. ) ;
#233 = ORIENTED_EDGE ( 'NONE', *, *, #222, .F. ) ;
#234 = VECTOR ( 'NONE', #98, 999.9999999999998863 ) ;
#235 = EDGE_LOOP ( 'NONE', ( #233, #204, #281, #261 ) ) ;
#236 = ADVANCED_FACE ( 'NONE', ( #171 ), #313, .T. ) ;
#237 = ORIENTED_EDGE ( 'NONE', *, *, #265, .T. ) ;
#238 = DATE_TIME_ROLE ( 'classification_date' ) ;
#239 = CALENDAR_DATE ( 2020, 22, 12 ) ;
#240 = CC_DESIGN_PERSON_AND_ORGANIZATION_ASSIGNMENT ( #162, #280, ( #151 ) ) ;
#241 = ORIENTED_EDGE ( 'NONE', *, *, #148, .T. ) ;
#242 = CARTESIAN_POINT ( 'NONE',  ( -12.69999999999999574, -12.69999999999999396, 12.69999999999999929 ) ) ;
#243 = LINE ( 'NONE', #3, #92 ) ;
#244 = FACE_OUTER_BOUND ( 'NONE', #278, .T. ) ;
#245 = DIRECTION ( 'NONE',  ( -1.000000000000000000, 0.000000000000000000, 0.000000000000000000 ) ) ;
#246 = CARTESIAN_POINT ( 'NONE',  ( -12.70000000000000284, 12.70000000000000284, -12.69999999999999929 ) ) ;
#247 = VECTOR ( 'NONE', #270, 999.9999999999998863 ) ;
#248 = ADVANCED_FACE ( 'NONE', ( #196 ), #44, .F. ) ;
#249 = DIRECTION ( 'NONE',  ( -0.000000000000000000, -0.000000000000000000, -1.000000000000000000 ) ) ;
#250 = CARTESIAN_POINT ( 'NONE',  ( 12.69999999999999574, 12.69999999999999574, 12.69999999999999929 ) ) ;
#251 = FACE_OUTER_BOUND ( 'NONE', #22, .T. ) ;
#252 = CARTESIAN_POINT ( 'NONE',  ( 12.69999999999999929, 12.69999999999999929, -12.69999999999999929 ) ) ;
#253 = EDGE_CURVE ( 'NONE', #279, #74, #121, .T. ) ;
#254 = DIRECTION ( 'NONE',  ( 1.000000000000000000, -2.220446049250312588E-16, 0.000000000000000000 ) ) ;
#255 = VERTEX_POINT ( 'NONE', #252 ) ;
#256 = ORIENTED_EDGE ( 'NONE', *, *, #148, .F. ) ;
#257 = ADVANCED_FACE ( 'NONE', ( #96 ), #45, .F. ) ;
#258 = DIRECTION ( 'NONE',  ( 0.000000000000000000, 0.000000000000000000, 1.000000000000000000 ) ) ;
#259 = APPROVAL_ROLE ( '' ) ;
#260 = CC_DESIGN_DATE_AND_TIME_ASSIGNMENT ( #219, #238, ( #230 ) ) ;
#261 = ORIENTED_EDGE ( 'NONE', *, *, #168, .T. ) ;
#262 = CARTESIAN_POINT ( 'NONE',  ( 12.69999999999999929, -12.69999999999999929, 12.69999999999999929 ) ) ;
#263 = DIRECTION ( 'NONE',  ( -0.000000000000000000, -0.000000000000000000, -1.000000000000000000 ) ) ;
#264 = CARTESIAN_POINT ( 'NONE',  ( 12.69999999999999929, 12.69999999999999929, -12.69999999999999929 ) ) ;
#265 = EDGE_CURVE ( 'NONE', #129, #320, #273, .T. ) ;
#266 = DIRECTION ( 'NONE',  ( 1.000000000000000000, 0.000000000000000000, 0.000000000000000000 ) ) ;
#267 = LOCAL_TIME ( 10, 11, 45.00000000000000000, #29 ) ;
#268 = EDGE_CURVE ( 'NONE', #177, #74, #225, .T. ) ;
#269 = DIRECTION ( 'NONE',  ( -0.000000000000000000, 0.000000000000000000, 1.000000000000000000 ) ) ;
#270 = DIRECTION ( 'NONE',  ( -0.7071067811865475727, -0.7071067811865475727, 0.000000000000000000 ) ) ;
#271 = CC_DESIGN_APPROVAL ( #94, ( #230 ) ) ;
#272 = PRODUCT_DEFINITION_SHAPE ( 'NONE', 'NONE',  #127 ) ;
#273 = LINE ( 'NONE', #167, #182 ) ;
#274 = ORIENTED_EDGE ( 'NONE', *, *, #141, .T. ) ;
#275 = AXIS2_PLACEMENT_3D ( 'NONE', #291, #317, #93 ) ;
#276 = AXIS2_PLACEMENT_3D ( 'NONE', #218, #245, #306 ) ;
#277 = ORIENTED_EDGE ( 'NONE', *, *, #253, .F. ) ;
#278 = EDGE_LOOP ( 'NONE', ( #172, #256, #130, #77 ) ) ;
#279 = VERTEX_POINT ( 'NONE', #200 ) ;
#280 = PERSON_AND_ORGANIZATION_ROLE ( 'design_supplier' ) ;
#281 = ORIENTED_EDGE ( 'NONE', *, *, #37, .T. ) ;
#282 = LINE ( 'NONE', #84, #75 ) ;
#283 = DIRECTION ( 'NONE',  ( 0.000000000000000000, 0.000000000000000000, 1.000000000000000000 ) ) ;
#284 = AXIS2_PLACEMENT_3D ( 'NONE', #288, #269, #227 ) ;
#285 = CARTESIAN_POINT ( 'NONE',  ( -12.69999999999999574, -12.69999999999999396, 12.69999999999999929 ) ) ;
#286 = EDGE_CURVE ( 'NONE', #279, #319, #145, .T. ) ;
#287 = COORDINATED_UNIVERSAL_TIME_OFFSET ( 8, 0, .AHEAD. ) ;
#288 = CARTESIAN_POINT ( 'NONE',  ( 0.000000000000000000, 0.000000000000000000, 12.69999999999999929 ) ) ;
#289 = VECTOR ( 'NONE', #266, 1000.000000000000000 ) ;
#290 = CARTESIAN_POINT ( 'NONE',  ( -12.70000000000000284, 12.70000000000000284, 12.69999999999999929 ) ) ;
#291 = CARTESIAN_POINT ( 'NONE',  ( 12.69999999999999574, 12.69999999999999574, 12.69999999999999929 ) ) ;
#292 = VECTOR ( 'NONE', #164, 1000.000000000000000 ) ;
#293 = DIRECTION ( 'NONE',  ( 0.000000000000000000, 0.000000000000000000, -1.000000000000000000 ) ) ;
#294 = VERTEX_POINT ( 'NONE', #16 ) ;
#295 = EDGE_LOOP ( 'NONE', ( #237, #274, #81 ) ) ;
#296 = APPROVAL_STATUS ( 'not_yet_approved' ) ;
#297 = PERSON_AND_ORGANIZATION ( #114, #31 ) ;
#298 = CC_DESIGN_PERSON_AND_ORGANIZATION_ASSIGNMENT ( #304, #83, ( #151 ) ) ;
#299 = PERSON_AND_ORGANIZATION ( #114, #31 ) ;
#300 = CARTESIAN_POINT ( 'NONE',  ( -12.70000000000000284, 12.70000000000000284, 12.69999999999999929 ) ) ;
#301 = CARTESIAN_POINT ( 'NONE',  ( 0.000000000000000000, 0.000000000000000000, 0.000000000000000000 ) ) ;
#302 = CARTESIAN_POINT ( 'NONE',  ( 12.69999999999999929, 12.69999999999999929, 12.69999999999999929 ) ) ;
#303 = PLANE ( 'NONE',  #276 ) ;
#304 = PERSON_AND_ORGANIZATION ( #114, #31 ) ;
#305 = CARTESIAN_POINT ( 'NONE',  ( -12.69999999999999751, -12.69999999999999929, 12.69999999999999929 ) ) ;
#306 = DIRECTION ( 'NONE',  ( 0.000000000000000000, 0.000000000000000000, 1.000000000000000000 ) ) ;
#307 = ADVANCED_FACE ( 'NONE', ( #117 ), #228, .F. ) ;
#308 = CALENDAR_DATE ( 2020, 22, 12 ) ;
#309 = AXIS2_PLACEMENT_3D ( 'NONE', #301, #258, #24 ) ;
#310 = LINE ( 'NONE', #139, #289 ) ;
#311 = DIRECTION ( 'NONE',  ( -2.220446049250312588E-16, 1.000000000000000000, 0.000000000000000000 ) ) ;
#312 = EDGE_CURVE ( 'NONE', #74, #48, #194, .T. ) ;
#313 = PLANE ( 'NONE',  #284 ) ;
#314 = DIRECTION ( 'NONE',  ( 0.7071067811865474617, 0.7071067811865474617, 0.000000000000000000 ) ) ;
#315 = CARTESIAN_POINT ( 'NONE',  ( 12.69999999999999574, 12.69999999999999574, 12.69999999999999929 ) ) ;
#316 = EDGE_CURVE ( 'NONE', #318, #279, #42, .T. ) ;
#317 = DIRECTION ( 'NONE',  ( -0.7071067811865475727, 0.7071067811865475727, 0.000000000000000000 ) ) ;
#318 = VERTEX_POINT ( 'NONE', #290 ) ;
#319 = VERTEX_POINT ( 'NONE', #66 ) ;
#320 = VERTEX_POINT ( 'NONE', #43 ) ;
#321 = ADVANCED_FACE ( 'NONE', ( #251 ), #13, .T. ) ;
ENDSEC;
END-ISO-10303-21;
